ISO-10303-21;
HEADER;
FILE_DESCRIPTION (( 'STEP AP203' ),
    '1' );
FILE_NAME ('BK7-LPBSC-12.7-405.STEP',
    '2020-12-22T03:11:25',
    ( '' ),
    ( '' ),
    'SwSTEP 2.0',
    'SolidWorks 2020',
    '' );
FILE_SCHEMA (( 'CONFIG_CONTROL_DESIGN' ));
ENDSEC;

DATA;
#1 = ADVANCED_FACE ( 'NONE', ( #268 ), #40, .T. ) ;
#2 = CC_DESIGN_PERSON_AND_ORGANIZATION_ASSIGNMENT ( #298, #97, ( #195 ) ) ;
#3 = DIRECTION ( 'NONE',  ( -0.7071067811865474617, -0.7071067811865474617, 0.000000000000000000 ) ) ;
#4 = ORIENTED_EDGE ( 'NONE', *, *, #110, .T. ) ;
#5 = PRODUCT_DEFINITION_FORMATION_WITH_SPECIFIED_SOURCE ( 'ANY', '', #101, .NOT_KNOWN. ) ;
#6 = EDGE_LOOP ( 'NONE', ( #241, #32, #36 ) ) ;
#7 = APPROVAL_STATUS ( 'not_yet_approved' ) ;
#8 = COORDINATED_UNIVERSAL_TIME_OFFSET ( 8, 0, .AHEAD. ) ;
#9 = ORIENTED_EDGE ( 'NONE', *, *, #232, .F. ) ;
#10 = VECTOR ( 'NONE', #75, 1000.000000000000000 ) ;
#11 = PERSON_AND_ORGANIZATION_ROLE ( 'design_supplier' ) ;
#12 = PERSON_AND_ORGANIZATION ( #34, #37 ) ;
#13 = CC_DESIGN_PERSON_AND_ORGANIZATION_ASSIGNMENT ( #146, #242, ( #5 ) ) ;
#14 = PLANE ( 'NONE',  #135 ) ;
#15 = LOCAL_TIME ( 11, 11, 25.00000000000000000, #226 ) ;
#16 = EDGE_CURVE ( 'NONE', #64, #30, #204, .T. ) ;
#17 = FACE_OUTER_BOUND ( 'NONE', #147, .T. ) ;
#18 = DIRECTION ( 'NONE',  ( 0.000000000000000000, 0.000000000000000000, 1.000000000000000000 ) ) ;
#19 = SHAPE_DEFINITION_REPRESENTATION ( #247, #108 ) ;
#20 = FACE_OUTER_BOUND ( 'NONE', #89, .T. ) ;
#21 = DIRECTION ( 'NONE',  ( 0.7071067811865474617, 0.7071067811865474617, 0.000000000000000000 ) ) ;
#22 = CARTESIAN_POINT ( 'NONE',  ( 0.000000000000000000, 0.000000000000000000, -6.349999999999999645 ) ) ;
#23 = PLANE ( 'NONE',  #313 ) ;
#24 = EDGE_CURVE ( 'NONE', #304, #165, #273, .T. ) ;
#25 = LINE ( 'NONE', #139, #57 ) ;
#26 = VECTOR ( 'NONE', #87, 999.9999999999998863 ) ;
#27 = VERTEX_POINT ( 'NONE', #292 ) ;
#28 = DIRECTION ( 'NONE',  ( 0.000000000000000000, 0.000000000000000000, -1.000000000000000000 ) ) ;
#29 = CARTESIAN_POINT ( 'NONE',  ( 6.349999999999996980, 6.349999999999996980, -6.349999999999999645 ) ) ;
#30 = VERTEX_POINT ( 'NONE', #98 ) ;
#31 = LINE ( 'NONE', #114, #318 ) ;
#32 = ORIENTED_EDGE ( 'NONE', *, *, #257, .F. ) ;
#33 = ORIENTED_EDGE ( 'NONE', *, *, #174, .T. ) ;
#34 = PERSON ( 'UNSPECIFIED', 'UNSPECIFIED', 'UNSPECIFIED', ('UNSPECIFIED'), ('UNSPECIFIED'), ('UNSPECIFIED') ) ;
#35 = CALENDAR_DATE ( 2020, 22, 12 ) ;
#36 = ORIENTED_EDGE ( 'NONE', *, *, #46, .F. ) ;
#37 = ORGANIZATION ( 'UNSPECIFIED', 'UNSPECIFIED', '' ) ;
#38 = VECTOR ( 'NONE', #113, 1000.000000000000000 ) ;
#39 = PERSON_AND_ORGANIZATION_ROLE ( 'classification_officer' ) ;
#40 = PLANE ( 'NONE',  #122 ) ;
#41 = DIRECTION ( 'NONE',  ( 1.000000000000000000, 0.000000000000000000, 0.000000000000000000 ) ) ;
#42 = AXIS2_PLACEMENT_3D ( 'NONE', #55, #237, #219 ) ;
#43 = LINE ( 'NONE', #294, #295 ) ;
#44 = APPROVAL_ROLE ( '' ) ;
#45 = CARTESIAN_POINT ( 'NONE',  ( -6.349999999999999645, -6.350000000000000533, 6.349999999999999645 ) ) ;
#46 = EDGE_CURVE ( 'NONE', #245, #304, #43, .T. ) ;
#47 =( NAMED_UNIT ( * ) PLANE_ANGLE_UNIT ( ) SI_UNIT ( $, .RADIAN. ) );
#48 = DIRECTION ( 'NONE',  ( -2.220446049250312588E-16, 1.000000000000000000, 0.000000000000000000 ) ) ;
#49 = APPROVAL_PERSON_ORGANIZATION ( #12, #90, #251 ) ;
#50 = DIRECTION ( 'NONE',  ( -2.903408047666378392E-16, -1.000000000000000000, 0.000000000000000000 ) ) ;
#51 = DIRECTION ( 'NONE',  ( 0.000000000000000000, 0.000000000000000000, 1.000000000000000000 ) ) ;
#52 = ADVANCED_FACE ( 'NONE', ( #17 ), #14, .F. ) ;
#53 = MANIFOLD_SOLID_BREP ( '¾µÏ', #275 ) ;
#54 = EDGE_CURVE ( 'NONE', #243, #220, #314, .T. ) ;
#55 = CARTESIAN_POINT ( 'NONE',  ( -6.349999999999999645, -6.350000000000000533, 6.349999999999999645 ) ) ;
#56 = CARTESIAN_POINT ( 'NONE',  ( 6.349999999999998757, 6.349999999999998757, 6.349999999999999645 ) ) ;
#57 = VECTOR ( 'NONE', #111, 1000.000000000000000 ) ;
#58 = DIRECTION ( 'NONE',  ( -0.000000000000000000, -0.000000000000000000, -1.000000000000000000 ) ) ;
#59 = LINE ( 'NONE', #217, #67 ) ;
#60 = ORIENTED_EDGE ( 'NONE', *, *, #130, .T. ) ;
#61 = ORIENTED_EDGE ( 'NONE', *, *, #105, .T. ) ;
#62 = VECTOR ( 'NONE', #41, 1000.000000000000000 ) ;
#63 = DATE_TIME_ROLE ( 'classification_date' ) ;
#64 = VERTEX_POINT ( 'NONE', #246 ) ;
#65 = APPROVAL_ROLE ( '' ) ;
#66 = VERTEX_POINT ( 'NONE', #203 ) ;
#67 = VECTOR ( 'NONE', #58, 1000.000000000000000 ) ;
#68 = CC_DESIGN_APPROVAL ( #212, ( #5 ) ) ;
#69 = DIRECTION ( 'NONE',  ( 1.000000000000000000, 0.000000000000000000, 0.000000000000000000 ) ) ;
#70 = CARTESIAN_POINT ( 'NONE',  ( 6.349999999999996980, 6.349999999999996980, 6.349999999999999645 ) ) ;
#71 = ADVANCED_FACE ( 'NONE', ( #125 ), #153, .F. ) ;
#72 = DATE_AND_TIME ( #288, #280 ) ;
#73 = VECTOR ( 'NONE', #181, 1000.000000000000114 ) ;
#74 = APPROVAL_PERSON_ORGANIZATION ( #148, #212, #44 ) ;
#75 = DIRECTION ( 'NONE',  ( -2.220446049250312588E-16, 1.000000000000000000, 0.000000000000000000 ) ) ;
#76 = APPLICATION_PROTOCOL_DEFINITION ( 'international standard', 'config_control_design', 1994, #279 ) ;
#77 = APPROVAL_DATE_TIME ( #151, #186 ) ;
#78 = CARTESIAN_POINT ( 'NONE',  ( 6.349999999999998757, 6.349999999999998757, 6.349999999999999645 ) ) ;
#79 = CC_DESIGN_DATE_AND_TIME_ASSIGNMENT ( #95, #123, ( #195 ) ) ;
#80 = APPROVAL_PERSON_ORGANIZATION ( #179, #186, #65 ) ;
#81 = PLANE ( 'NONE',  #150 ) ;
#82 = ADVANCED_FACE ( 'NONE', ( #228 ), #131, .F. ) ;
#83 = CARTESIAN_POINT ( 'NONE',  ( -6.349999999999999645, -6.350000000000000533, 6.349999999999999645 ) ) ;
#84 = CARTESIAN_POINT ( 'NONE',  ( -6.349999999999998757, -6.349999999999997868, 6.349999999999999645 ) ) ;
#85 = ORIENTED_EDGE ( 'NONE', *, *, #24, .F. ) ;
#86 = VECTOR ( 'NONE', #185, 999.9999999999998863 ) ;
#87 = DIRECTION ( 'NONE',  ( -0.7071067811865475727, -0.7071067811865475727, 0.000000000000000000 ) ) ;
#88 = LINE ( 'NONE', #84, #208 ) ;
#89 = EDGE_LOOP ( 'NONE', ( #218, #85, #192, #4 ) ) ;
#90 = APPROVAL ( #312, 'UNSPECIFIED' ) ;
#91 = ORIENTED_EDGE ( 'NONE', *, *, #16, .T. ) ;
#92 = ORIENTED_EDGE ( 'NONE', *, *, #130, .F. ) ;
#93 = VECTOR ( 'NONE', #99, 1000.000000000000000 ) ;
#94 = LOCAL_TIME ( 11, 11, 25.00000000000000000, #266 ) ;
#95 = DATE_AND_TIME ( #168, #250 ) ;
#96 = ORIENTED_EDGE ( 'NONE', *, *, #202, .F. ) ;
#97 = PERSON_AND_ORGANIZATION_ROLE ( 'creator' ) ;
#98 = CARTESIAN_POINT ( 'NONE',  ( 6.349999999999999645, -6.350000000000000533, -6.349999999999999645 ) ) ;
#99 = DIRECTION ( 'NONE',  ( 0.000000000000000000, 0.000000000000000000, -1.000000000000000000 ) ) ;
#100 = DIRECTION ( 'NONE',  ( -1.000000000000000000, -6.829619984160658046E-17, 0.000000000000000000 ) ) ;
#101 = PRODUCT ( 'BK7-LPBSC-12.7-405', 'BK7-LPBSC-12.7-405', '', ( #214 ) ) ;
#102 = CARTESIAN_POINT ( 'NONE',  ( 0.000000000000000000, 0.000000000000000000, 6.349999999999999645 ) ) ;
#103 = DIRECTION ( 'NONE',  ( -6.829619984160658046E-17, 1.000000000000000000, -0.000000000000000000 ) ) ;
#104 = CARTESIAN_POINT ( 'NONE',  ( 6.349999999999996980, 6.349999999999996980, 6.349999999999999645 ) ) ;
#105 = EDGE_CURVE ( 'NONE', #30, #285, #317, .T. ) ;
#106 =( GEOMETRIC_REPRESENTATION_CONTEXT ( 3 ) GLOBAL_UNCERTAINTY_ASSIGNED_CONTEXT ( ( #129 ) ) GLOBAL_UNIT_ASSIGNED_CONTEXT ( ( #154, #47, #112 ) ) REPRESENTATION_CONTEXT ( 'NONE', 'WORKASPACE' ) );
#107 = DIRECTION ( 'NONE',  ( -1.000000000000000000, 2.903408047666378392E-16, 0.000000000000000000 ) ) ;
#108 = ADVANCED_BREP_SHAPE_REPRESENTATION ( 'BK7-LPBSC-12.7-405', ( #173, #53, #265 ), #106 ) ;
#109 = EDGE_CURVE ( 'NONE', #121, #165, #206, .T. ) ;
#110 = EDGE_CURVE ( 'NONE', #27, #197, #252, .T. ) ;
#111 = DIRECTION ( 'NONE',  ( 1.000000000000000000, -2.903408047666378392E-16, 0.000000000000000000 ) ) ;
#112 =( NAMED_UNIT ( * ) SI_UNIT ( $, .STERADIAN. ) SOLID_ANGLE_UNIT ( ) );
#113 = DIRECTION ( 'NONE',  ( 0.000000000000000000, 0.000000000000000000, -1.000000000000000000 ) ) ;
#114 = CARTESIAN_POINT ( 'NONE',  ( 6.349999999999998757, 6.349999999999998757, 6.349999999999999645 ) ) ;
#115 = EDGE_CURVE ( 'NONE', #197, #121, #302, .T. ) ;
#116 = VECTOR ( 'NONE', #164, 1000.000000000000000 ) ;
#117 = DIRECTION ( 'NONE',  ( 1.000000000000000000, -2.903408047666378392E-16, 0.000000000000000000 ) ) ;
#118 = EDGE_LOOP ( 'NONE', ( #267, #188, #244 ) ) ;
#119 = CC_DESIGN_APPROVAL ( #90, ( #255 ) ) ;
#120 = APPROVAL_DATE_TIME ( #222, #90 ) ;
#121 = VERTEX_POINT ( 'NONE', #261 ) ;
#122 = AXIS2_PLACEMENT_3D ( 'NONE', #102, #227, #201 ) ;
#123 = DATE_TIME_ROLE ( 'creation_date' ) ;
#124 = ORIENTED_EDGE ( 'NONE', *, *, #115, .T. ) ;
#125 = FACE_OUTER_BOUND ( 'NONE', #167, .T. ) ;
#126 = CLOSED_SHELL ( 'NONE', ( #272, #233, #52, #1, #289 ) ) ;
#127 = LOCAL_TIME ( 11, 11, 25.00000000000000000, #133 ) ;
#128 = CARTESIAN_POINT ( 'NONE',  ( -6.349999999999999645, -6.350000000000000533, -6.349999999999999645 ) ) ;
#129 = UNCERTAINTY_MEASURE_WITH_UNIT (LENGTH_MEASURE( 1.000000000000000082E-05 ), #154, 'distance_accuracy_value', 'NONE');
#130 = EDGE_CURVE ( 'NONE', #245, #121, #88, .T. ) ;
#131 = PLANE ( 'NONE',  #287 ) ;
#132 = PERSON_AND_ORGANIZATION ( #34, #37 ) ;
#133 = COORDINATED_UNIVERSAL_TIME_OFFSET ( 8, 0, .AHEAD. ) ;
#134 = FACE_OUTER_BOUND ( 'NONE', #6, .T. ) ;
#135 = AXIS2_PLACEMENT_3D ( 'NONE', #172, #100, #291 ) ;
#136 = CARTESIAN_POINT ( 'NONE',  ( -6.350000000000002309, 6.350000000000001421, 6.349999999999999645 ) ) ;
#137 = DIRECTION ( 'NONE',  ( 0.000000000000000000, 0.000000000000000000, 1.000000000000000000 ) ) ;
#138 = CARTESIAN_POINT ( 'NONE',  ( 0.000000000000000000, 0.000000000000000000, 0.000000000000000000 ) ) ;
#139 = CARTESIAN_POINT ( 'NONE',  ( 6.349999999999996980, 6.349999999999996980, 6.349999999999999645 ) ) ;
#140 = EDGE_LOOP ( 'NONE', ( #144, #9, #307, #306 ) ) ;
#141 = LINE ( 'NONE', #162, #26 ) ;
#142 = DIRECTION ( 'NONE',  ( -0.000000000000000000, -0.000000000000000000, -1.000000000000000000 ) ) ;
#143 = CARTESIAN_POINT ( 'NONE',  ( 6.349999999999999645, -6.350000000000000533, 6.349999999999999645 ) ) ;
#144 = ORIENTED_EDGE ( 'NONE', *, *, #311, .T. ) ;
#145 = ORIENTED_EDGE ( 'NONE', *, *, #110, .F. ) ;
#146 = PERSON_AND_ORGANIZATION ( #34, #37 ) ;
#147 = EDGE_LOOP ( 'NONE', ( #61, #96, #221, #263 ) ) ;
#148 = PERSON_AND_ORGANIZATION ( #34, #37 ) ;
#149 = EDGE_LOOP ( 'NONE', ( #240, #145, #225, #60 ) ) ;
#150 = AXIS2_PLACEMENT_3D ( 'NONE', #320, #276, #160 ) ;
#151 = DATE_AND_TIME ( #156, #127 ) ;
#152 = CC_DESIGN_DATE_AND_TIME_ASSIGNMENT ( #271, #63, ( #255 ) ) ;
#153 = PLANE ( 'NONE',  #248 ) ;
#154 =( LENGTH_UNIT ( ) NAMED_UNIT ( * ) SI_UNIT ( .MILLI., .METRE. ) );
#155 = DESIGN_CONTEXT ( 'detailed design', #279, 'design' ) ;
#156 = CALENDAR_DATE ( 2020, 22, 12 ) ;
#157 = CARTESIAN_POINT ( 'NONE',  ( -6.349999999999998757, -6.349999999999997868, 6.349999999999999645 ) ) ;
#158 = DIRECTION ( 'NONE',  ( -2.220446049250312588E-16, 1.000000000000000000, 0.000000000000000000 ) ) ;
#159 = PLANE ( 'NONE',  #171 ) ;
#160 = DIRECTION ( 'NONE',  ( 1.000000000000000000, 0.000000000000000000, 0.000000000000000000 ) ) ;
#161 = CARTESIAN_POINT ( 'NONE',  ( -6.349999999999999645, -6.350000000000000533, 6.349999999999999645 ) ) ;
#162 = CARTESIAN_POINT ( 'NONE',  ( 6.349999999999996980, 6.349999999999996980, 6.349999999999999645 ) ) ;
#163 = ORIENTED_EDGE ( 'NONE', *, *, #184, .F. ) ;
#164 = DIRECTION ( 'NONE',  ( -0.000000000000000000, -0.000000000000000000, -1.000000000000000000 ) ) ;
#165 = VERTEX_POINT ( 'NONE', #189 ) ;
#166 = EDGE_LOOP ( 'NONE', ( #91, #163, #216, #286 ) ) ;
#167 = EDGE_LOOP ( 'NONE', ( #264, #92, #309, #282 ) ) ;
#168 = CALENDAR_DATE ( 2020, 22, 12 ) ;
#169 = ORIENTED_EDGE ( 'NONE', *, *, #16, .F. ) ;
#170 = EDGE_CURVE ( 'NONE', #220, #66, #31, .T. ) ;
#171 = AXIS2_PLACEMENT_3D ( 'NONE', #78, #274, #21 ) ;
#172 = CARTESIAN_POINT ( 'NONE',  ( 6.349999999999998757, 6.349999999999998757, 6.349999999999999645 ) ) ;
#173 = MANIFOLD_SOLID_BREP ( 'Í¹Ì¨-À', #126 ) ;
#174 = EDGE_CURVE ( 'NONE', #165, #197, #284, .T. ) ;
#175 = DIRECTION ( 'NONE',  ( 1.000000000000000000, -2.220446049250312588E-16, 0.000000000000000000 ) ) ;
#176 = FACE_OUTER_BOUND ( 'NONE', #190, .T. ) ;
#177 = PERSON_AND_ORGANIZATION ( #34, #37 ) ;
#178 = CARTESIAN_POINT ( 'NONE',  ( 6.349999999999998757, 6.349999999999998757, -6.349999999999999645 ) ) ;
#179 = PERSON_AND_ORGANIZATION ( #34, #37 ) ;
#180 = FACE_OUTER_BOUND ( 'NONE', #223, .T. ) ;
#181 = DIRECTION ( 'NONE',  ( -0.7071067811865474617, -0.7071067811865474617, 0.000000000000000000 ) ) ;
#182 = CC_DESIGN_APPROVAL ( #186, ( #195 ) ) ;
#183 = FACE_OUTER_BOUND ( 'NONE', #166, .T. ) ;
#184 = EDGE_CURVE ( 'NONE', #220, #30, #59, .T. ) ;
#185 = DIRECTION ( 'NONE',  ( -0.7071067811865475727, -0.7071067811865475727, 0.000000000000000000 ) ) ;
#186 = APPROVAL ( #7, 'UNSPECIFIED' ) ;
#187 = CARTESIAN_POINT ( 'NONE',  ( 6.349999999999996980, 6.349999999999996980, -6.349999999999999645 ) ) ;
#188 = ORIENTED_EDGE ( 'NONE', *, *, #54, .T. ) ;
#189 = CARTESIAN_POINT ( 'NONE',  ( -6.350000000000002309, 6.350000000000001421, -6.349999999999999645 ) ) ;
#190 = EDGE_LOOP ( 'NONE', ( #124, #229, #33 ) ) ;
#191 = APPLICATION_CONTEXT ( 'configuration controlled 3d designs of mechanical parts and assemblies' ) ;
#192 = ORIENTED_EDGE ( 'NONE', *, *, #257, .T. ) ;
#193 = VECTOR ( 'NONE', #142, 1000.000000000000000 ) ;
#194 = ORIENTED_EDGE ( 'NONE', *, *, #311, .F. ) ;
#195 = PRODUCT_DEFINITION ( 'UNKNOWN', '', #5, #155 ) ;
#196 = APPROVAL_STATUS ( 'not_yet_approved' ) ;
#197 = VERTEX_POINT ( 'NONE', #303 ) ;
#198 = COORDINATED_UNIVERSAL_TIME_OFFSET ( 8, 0, .AHEAD. ) ;
#199 = CARTESIAN_POINT ( 'NONE',  ( 6.349999999999996980, 6.349999999999996980, 6.349999999999999645 ) ) ;
#200 = VECTOR ( 'NONE', #103, 1000.000000000000000 ) ;
#201 = DIRECTION ( 'NONE',  ( 1.000000000000000000, 0.000000000000000000, 0.000000000000000000 ) ) ;
#202 = EDGE_CURVE ( 'NONE', #66, #285, #239, .T. ) ;
#203 = CARTESIAN_POINT ( 'NONE',  ( 6.349999999999998757, 6.349999999999998757, 6.349999999999999645 ) ) ;
#204 = LINE ( 'NONE', #128, #299 ) ;
#205 = CALENDAR_DATE ( 2020, 22, 12 ) ;
#206 = LINE ( 'NONE', #296, #10 ) ;
#207 = CARTESIAN_POINT ( 'NONE',  ( 0.000000000000000000, 0.000000000000000000, 6.349999999999999645 ) ) ;
#208 = VECTOR ( 'NONE', #28, 1000.000000000000000 ) ;
#209 = EDGE_CURVE ( 'NONE', #27, #245, #141, .T. ) ;
#210 = DIRECTION ( 'NONE',  ( 1.000000000000000000, 0.000000000000000000, 0.000000000000000000 ) ) ;
#211 = PRODUCT_RELATED_PRODUCT_CATEGORY ( 'detail', '', ( #101 ) ) ;
#212 = APPROVAL ( #196, 'UNSPECIFIED' ) ;
#213 = PLANE ( 'NONE',  #260 ) ;
#214 = MECHANICAL_CONTEXT ( 'NONE', #191, 'mechanical' ) ;
#215 = EDGE_CURVE ( 'NONE', #66, #243, #236, .T. ) ;
#216 = ORIENTED_EDGE ( 'NONE', *, *, #54, .F. ) ;
#217 = CARTESIAN_POINT ( 'NONE',  ( 6.349999999999999645, -6.350000000000000533, 6.349999999999999645 ) ) ;
#218 = ORIENTED_EDGE ( 'NONE', *, *, #174, .F. ) ;
#219 = DIRECTION ( 'NONE',  ( 0.000000000000000000, -0.000000000000000000, 1.000000000000000000 ) ) ;
#220 = VERTEX_POINT ( 'NONE', #143 ) ;
#221 = ORIENTED_EDGE ( 'NONE', *, *, #170, .F. ) ;
#222 = DATE_AND_TIME ( #35, #94 ) ;
#223 = EDGE_LOOP ( 'NONE', ( #194, #238, #169 ) ) ;
#224 = VECTOR ( 'NONE', #3, 1000.000000000000114 ) ;
#225 = ORIENTED_EDGE ( 'NONE', *, *, #209, .T. ) ;
#226 = COORDINATED_UNIVERSAL_TIME_OFFSET ( 8, 0, .AHEAD. ) ;
#227 = DIRECTION ( 'NONE',  ( -0.000000000000000000, 0.000000000000000000, 1.000000000000000000 ) ) ;
#228 = FACE_OUTER_BOUND ( 'NONE', #149, .T. ) ;
#229 = ORIENTED_EDGE ( 'NONE', *, *, #109, .T. ) ;
#230 = PERSON_AND_ORGANIZATION_ROLE ( 'design_owner' ) ;
#231 = PERSON_AND_ORGANIZATION ( #34, #37 ) ;
#232 = EDGE_CURVE ( 'NONE', #243, #64, #281, .T. ) ;
#233 = ADVANCED_FACE ( 'NONE', ( #183 ), #278, .F. ) ;
#234 = DIRECTION ( 'NONE',  ( 0.000000000000000000, 0.000000000000000000, 1.000000000000000000 ) ) ;
#235 = CARTESIAN_POINT ( 'NONE',  ( 6.349999999999998757, 6.349999999999998757, 6.349999999999999645 ) ) ;
#236 = LINE ( 'NONE', #235, #224 ) ;
#237 = DIRECTION ( 'NONE',  ( 0.000000000000000000, 1.000000000000000000, 0.000000000000000000 ) ) ;
#238 = ORIENTED_EDGE ( 'NONE', *, *, #105, .F. ) ;
#239 = LINE ( 'NONE', #56, #116 ) ;
#240 = ORIENTED_EDGE ( 'NONE', *, *, #115, .F. ) ;
#241 = ORIENTED_EDGE ( 'NONE', *, *, #209, .F. ) ;
#242 = PERSON_AND_ORGANIZATION_ROLE ( 'creator' ) ;
#243 = VERTEX_POINT ( 'NONE', #161 ) ;
#244 = ORIENTED_EDGE ( 'NONE', *, *, #170, .T. ) ;
#245 = VERTEX_POINT ( 'NONE', #259 ) ;
#246 = CARTESIAN_POINT ( 'NONE',  ( -6.349999999999999645, -6.350000000000000533, -6.349999999999999645 ) ) ;
#247 = PRODUCT_DEFINITION_SHAPE ( 'NONE', 'NONE',  #195 ) ;
#248 = AXIS2_PLACEMENT_3D ( 'NONE', #157, #175, #18 ) ;
#249 = DIRECTION ( 'NONE',  ( 0.7071067811865475727, 0.7071067811865475727, 0.000000000000000000 ) ) ;
#250 = LOCAL_TIME ( 11, 11, 25.00000000000000000, #8 ) ;
#251 = APPROVAL_ROLE ( '' ) ;
#252 = LINE ( 'NONE', #199, #38 ) ;
#253 = LINE ( 'NONE', #321, #73 ) ;
#254 = CARTESIAN_POINT ( 'NONE',  ( 6.349999999999998757, 6.349999999999998757, -6.349999999999999645 ) ) ;
#255 = SECURITY_CLASSIFICATION ( '', '', #290 ) ;
#256 = PLANE ( 'NONE',  #319 ) ;
#257 = EDGE_CURVE ( 'NONE', #304, #27, #25, .T. ) ;
#258 = APPLICATION_PROTOCOL_DEFINITION ( 'international standard', 'config_control_design', 1994, #191 ) ;
#259 = CARTESIAN_POINT ( 'NONE',  ( -6.349999999999998757, -6.349999999999997868, 6.349999999999999645 ) ) ;
#260 = AXIS2_PLACEMENT_3D ( 'NONE', #207, #137, #158 ) ;
#261 = CARTESIAN_POINT ( 'NONE',  ( -6.349999999999998757, -6.349999999999997868, -6.349999999999999645 ) ) ;
#262 = DIRECTION ( 'NONE',  ( -6.829619984160658046E-17, 1.000000000000000000, -0.000000000000000000 ) ) ;
#263 = ORIENTED_EDGE ( 'NONE', *, *, #184, .T. ) ;
#264 = ORIENTED_EDGE ( 'NONE', *, *, #109, .F. ) ;
#265 = AXIS2_PLACEMENT_3D ( 'NONE', #138, #51, #210 ) ;
#266 = COORDINATED_UNIVERSAL_TIME_OFFSET ( 8, 0, .AHEAD. ) ;
#267 = ORIENTED_EDGE ( 'NONE', *, *, #215, .T. ) ;
#268 = FACE_OUTER_BOUND ( 'NONE', #118, .T. ) ;
#269 = DIRECTION ( 'NONE',  ( -0.7071067811865475727, 0.7071067811865475727, 0.000000000000000000 ) ) ;
#270 = FACE_OUTER_BOUND ( 'NONE', #140, .T. ) ;
#271 = DATE_AND_TIME ( #205, #15 ) ;
#272 = ADVANCED_FACE ( 'NONE', ( #270 ), #159, .F. ) ;
#273 = LINE ( 'NONE', #293, #93 ) ;
#274 = DIRECTION ( 'NONE',  ( 0.7071067811865475727, -0.7071067811865475727, 0.000000000000000000 ) ) ;
#275 = CLOSED_SHELL ( 'NONE', ( #82, #71, #297, #316, #308 ) ) ;
#276 = DIRECTION ( 'NONE',  ( -0.000000000000000000, 0.000000000000000000, 1.000000000000000000 ) ) ;
#277 = CC_DESIGN_PERSON_AND_ORGANIZATION_ASSIGNMENT ( #231, #39, ( #255 ) ) ;
#278 = PLANE ( 'NONE',  #42 ) ;
#279 = APPLICATION_CONTEXT ( 'configuration controlled 3d designs of mechanical parts and assemblies' ) ;
#280 = LOCAL_TIME ( 11, 11, 25.00000000000000000, #198 ) ;
#281 = LINE ( 'NONE', #83, #193 ) ;
#282 = ORIENTED_EDGE ( 'NONE', *, *, #24, .T. ) ;
#283 = CC_DESIGN_PERSON_AND_ORGANIZATION_ASSIGNMENT ( #177, #11, ( #5 ) ) ;
#284 = LINE ( 'NONE', #187, #305 ) ;
#285 = VERTEX_POINT ( 'NONE', #254 ) ;
#286 = ORIENTED_EDGE ( 'NONE', *, *, #232, .T. ) ;
#287 = AXIS2_PLACEMENT_3D ( 'NONE', #70, #269, #249 ) ;
#288 = CALENDAR_DATE ( 2020, 22, 12 ) ;
#289 = ADVANCED_FACE ( 'NONE', ( #180 ), #81, .F. ) ;
#290 = SECURITY_CLASSIFICATION_LEVEL ( 'unclassified' ) ;
#291 = DIRECTION ( 'NONE',  ( 6.829619984160658046E-17, -1.000000000000000000, 0.000000000000000000 ) ) ;
#292 = CARTESIAN_POINT ( 'NONE',  ( 6.349999999999996980, 6.349999999999996980, 6.349999999999999645 ) ) ;
#293 = CARTESIAN_POINT ( 'NONE',  ( -6.350000000000002309, 6.350000000000001421, 6.349999999999999645 ) ) ;
#294 = CARTESIAN_POINT ( 'NONE',  ( -6.349999999999998757, -6.349999999999997868, 6.349999999999999645 ) ) ;
#295 = VECTOR ( 'NONE', #315, 1000.000000000000000 ) ;
#296 = CARTESIAN_POINT ( 'NONE',  ( -6.349999999999998757, -6.349999999999997868, -6.349999999999999645 ) ) ;
#297 = ADVANCED_FACE ( 'NONE', ( #20 ), #256, .F. ) ;
#298 = PERSON_AND_ORGANIZATION ( #34, #37 ) ;
#299 = VECTOR ( 'NONE', #69, 1000.000000000000000 ) ;
#300 = CC_DESIGN_SECURITY_CLASSIFICATION ( #255, ( #5 ) ) ;
#301 = CC_DESIGN_PERSON_AND_ORGANIZATION_ASSIGNMENT ( #132, #230, ( #101 ) ) ;
#302 = LINE ( 'NONE', #29, #86 ) ;
#303 = CARTESIAN_POINT ( 'NONE',  ( 6.349999999999996980, 6.349999999999996980, -6.349999999999999645 ) ) ;
#304 = VERTEX_POINT ( 'NONE', #136 ) ;
#305 = VECTOR ( 'NONE', #117, 1000.000000000000000 ) ;
#306 = ORIENTED_EDGE ( 'NONE', *, *, #202, .T. ) ;
#307 = ORIENTED_EDGE ( 'NONE', *, *, #215, .F. ) ;
#308 = ADVANCED_FACE ( 'NONE', ( #176 ), #23, .F. ) ;
#309 = ORIENTED_EDGE ( 'NONE', *, *, #46, .T. ) ;
#310 = APPROVAL_DATE_TIME ( #72, #212 ) ;
#311 = EDGE_CURVE ( 'NONE', #285, #64, #253, .T. ) ;
#312 = APPROVAL_STATUS ( 'not_yet_approved' ) ;
#313 = AXIS2_PLACEMENT_3D ( 'NONE', #22, #234, #48 ) ;
#314 = LINE ( 'NONE', #45, #62 ) ;
#315 = DIRECTION ( 'NONE',  ( -2.220446049250312588E-16, 1.000000000000000000, 0.000000000000000000 ) ) ;
#316 = ADVANCED_FACE ( 'NONE', ( #134 ), #213, .T. ) ;
#317 = LINE ( 'NONE', #178, #200 ) ;
#318 = VECTOR ( 'NONE', #262, 1000.000000000000000 ) ;
#319 = AXIS2_PLACEMENT_3D ( 'NONE', #104, #50, #107 ) ;
#320 = CARTESIAN_POINT ( 'NONE',  ( 0.000000000000000000, 0.000000000000000000, -6.349999999999999645 ) ) ;
#321 = CARTESIAN_POINT ( 'NONE',  ( 6.349999999999998757, 6.349999999999998757, -6.349999999999999645 ) ) ;
ENDSEC;
END-ISO-10303-21;
